ISO-10303-21;
HEADER;
FILE_DESCRIPTION (( 'STEP AP203' ),
    '1' );
FILE_NAME ('Q-AZHWP-12.7-980-M.STEP',
    '2020-12-22T09:07:30',
    ( '' ),
    ( '' ),
    'SwSTEP 2.0',
    'SolidWorks 2020',
    '' );
FILE_SCHEMA (( 'CONFIG_CONTROL_DESIGN' ));
ENDSEC;

DATA;
#1 = CIRCLE ( 'NONE', #240, 6.349999999999999645 ) ;
#2 = EDGE_CURVE ( 'NONE', #139, #207, #196, .T. ) ;
#3 = CARTESIAN_POINT ( 'NONE',  ( -1.614212418857619014, 0.000000000000000000, 6.349999999999999645 ) ) ;
#4 = CC_DESIGN_APPROVAL ( #81, ( #76 ) ) ;
#5 = DIRECTION ( 'NONE',  ( 0.000000000000000000, 0.000000000000000000, 1.000000000000000000 ) ) ;
#6 = PERSON_AND_ORGANIZATION_ROLE ( 'design_supplier' ) ;
#7 = DIRECTION ( 'NONE',  ( -1.000000000000000000, -0.000000000000000000, -0.000000000000000000 ) ) ;
#8 = LOCAL_TIME ( 17, 7, 30.00000000000000000, #270 ) ;
#9 = APPLICATION_PROTOCOL_DEFINITION ( 'international standard', 'config_control_design', 1994, #161 ) ;
#10 = ORIENTED_EDGE ( 'NONE', *, *, #144, .T. ) ;
#11 = CIRCLE ( 'NONE', #34, 6.349999999999999645 ) ;
#12 = DIRECTION ( 'NONE',  ( -1.000000000000000000, -0.000000000000000000, -0.000000000000000000 ) ) ;
#13 = ORIENTED_EDGE ( 'NONE', *, *, #129, .T. ) ;
#14 = DESIGN_CONTEXT ( 'detailed design', #203, 'design' ) ;
#15 = VERTEX_POINT ( 'NONE', #93 ) ;
#16 = EDGE_CURVE ( 'NONE', #15, #290, #115, .T. ) ;
#17 = EDGE_LOOP ( 'NONE', ( #73, #194 ) ) ;
#18 = FACE_BOUND ( 'NONE', #42, .T. ) ;
#19 = CARTESIAN_POINT ( 'NONE',  ( -1.614212418857619014, 0.000000000000000000, 0.000000000000000000 ) ) ;
#20 = MANIFOLD_SOLID_BREP ( 'Ðý×', #318 ) ;
#21 = CALENDAR_DATE ( 2020, 22, 12 ) ;
#22 = FACE_OUTER_BOUND ( 'NONE', #236, .T. ) ;
#23 = CARTESIAN_POINT ( 'NONE',  ( -1.614212418857619014, 0.000000000000000000, 0.000000000000000000 ) ) ;
#24 = FACE_OUTER_BOUND ( 'NONE', #142, .T. ) ;
#25 = EDGE_CURVE ( 'NONE', #176, #259, #238, .T. ) ;
#26 = CARTESIAN_POINT ( 'NONE',  ( -3.000000000000000000, 0.000000000000000000, 0.000000000000000000 ) ) ;
#27 = APPROVAL_STATUS ( 'not_yet_approved' ) ;
#28 = CARTESIAN_POINT ( 'NONE',  ( -2.999999999999999556, 7.776507174585692163E-16, -6.349999999999999645 ) ) ;
#29 = DIRECTION ( 'NONE',  ( -1.000000000000000000, -0.000000000000000000, -0.000000000000000000 ) ) ;
#30 = APPROVAL_ROLE ( '' ) ;
#31 = CARTESIAN_POINT ( 'NONE',  ( -1.614212418857619014, 0.000000000000000000, 6.349999999999999645 ) ) ;
#32 = DIRECTION ( 'NONE',  ( -1.000000000000000000, -0.000000000000000000, -0.000000000000000000 ) ) ;
#33 = ORIENTED_EDGE ( 'NONE', *, *, #185, .F. ) ;
#34 = AXIS2_PLACEMENT_3D ( 'NONE', #264, #147, #202 ) ;
#35 = AXIS2_PLACEMENT_3D ( 'NONE', #323, #32, #256 ) ;
#36 = CARTESIAN_POINT ( 'NONE',  ( -3.000000000000000000, 6.349999999999999645, 0.000000000000000000 ) ) ;
#37 = EDGE_LOOP ( 'NONE', ( #324, #266 ) ) ;
#38 = ORIENTED_EDGE ( 'NONE', *, *, #223, .F. ) ;
#39 = CC_DESIGN_DATE_AND_TIME_ASSIGNMENT ( #216, #153, ( #213 ) ) ;
#40 = APPROVAL_ROLE ( '' ) ;
#41 = PERSON_AND_ORGANIZATION ( #57, #67 ) ;
#42 = EDGE_LOOP ( 'NONE', ( #10, #149 ) ) ;
#43 = DIRECTION ( 'NONE',  ( -0.000000000000000000, 0.000000000000000000, 1.000000000000000000 ) ) ;
#44 = CARTESIAN_POINT ( 'NONE',  ( 1.500000000000000888, 0.000000000000000000, 0.000000000000000000 ) ) ;
#45 = CYLINDRICAL_SURFACE ( 'NONE', #224, 6.349999999999999645 ) ;
#46 = EDGE_CURVE ( 'NONE', #88, #15, #252, .T. ) ;
#47 = FACE_OUTER_BOUND ( 'NONE', #87, .T. ) ;
#48 = LOCAL_TIME ( 17, 7, 30.00000000000000000, #298 ) ;
#49 = CARTESIAN_POINT ( 'NONE',  ( -1.614212418857619014, 0.000000000000000000, 12.69999999999999929 ) ) ;
#50 = CALENDAR_DATE ( 2020, 22, 12 ) ;
#51 = EDGE_CURVE ( 'NONE', #206, #97, #11, .T. ) ;
#52 = CYLINDRICAL_SURFACE ( 'NONE', #159, 6.349999999999999645 ) ;
#53 = DIRECTION ( 'NONE',  ( -1.000000000000000000, -0.000000000000000000, -0.000000000000000000 ) ) ;
#54 = APPROVAL ( #232, 'UNSPECIFIED' ) ;
#55 = AXIS2_PLACEMENT_3D ( 'NONE', #225, #89, #313 ) ;
#56 = DIRECTION ( 'NONE',  ( 0.000000000000000000, 0.000000000000000000, 1.000000000000000000 ) ) ;
#57 = PERSON ( 'UNSPECIFIED', 'UNSPECIFIED', 'UNSPECIFIED', ('UNSPECIFIED'), ('UNSPECIFIED'), ('UNSPECIFIED') ) ;
#58 = ADVANCED_FACE ( 'NONE', ( #22, #18 ), #118, .F. ) ;
#59 = DIRECTION ( 'NONE',  ( 0.000000000000000000, 0.000000000000000000, -1.000000000000000000 ) ) ;
#60 = ORIENTED_EDGE ( 'NONE', *, *, #185, .T. ) ;
#61 = CC_DESIGN_DATE_AND_TIME_ASSIGNMENT ( #327, #173, ( #76 ) ) ;
#62 = CIRCLE ( 'NONE', #127, 6.349999999999999645 ) ;
#63 = FACE_BOUND ( 'NONE', #37, .T. ) ;
#64 = ADVANCED_FACE ( 'NONE', ( #146 ), #332, .F. ) ;
#65 = ORIENTED_EDGE ( 'NONE', *, *, #223, .T. ) ;
#66 = ORIENTED_EDGE ( 'NONE', *, *, #2, .T. ) ;
#67 = ORGANIZATION ( 'UNSPECIFIED', 'UNSPECIFIED', '' ) ;
#68 = PERSON_AND_ORGANIZATION_ROLE ( 'creator' ) ;
#69 = DIRECTION ( 'NONE',  ( 0.000000000000000000, 0.000000000000000000, 1.000000000000000000 ) ) ;
#70 = ADVANCED_FACE ( 'NONE', ( #239 ), #45, .F. ) ;
#71 = CARTESIAN_POINT ( 'NONE',  ( 3.000000000000000000, 12.69999999999999929, 0.000000000000000000 ) ) ;
#72 = COORDINATED_UNIVERSAL_TIME_OFFSET ( 8, 0, .AHEAD. ) ;
#73 = ORIENTED_EDGE ( 'NONE', *, *, #2, .F. ) ;
#74 = DATE_AND_TIME ( #21, #305 ) ;
#75 = CARTESIAN_POINT ( 'NONE',  ( -1.500000000000000444, 0.000000000000000000, 6.349999999999999645 ) ) ;
#76 = PRODUCT_DEFINITION ( 'UNKNOWN', '', #120, #14 ) ;
#77 = VECTOR ( 'NONE', #273, 1000.000000000000000 ) ;
#78 = DIRECTION ( 'NONE',  ( -1.000000000000000000, -0.000000000000000000, -0.000000000000000000 ) ) ;
#79 = AXIS2_PLACEMENT_3D ( 'NONE', #275, #134, #221 ) ;
#80 = DIRECTION ( 'NONE',  ( -1.000000000000000000, -0.000000000000000000, -0.000000000000000000 ) ) ;
#81 = APPROVAL ( #229, 'UNSPECIFIED' ) ;
#82 = DIRECTION ( 'NONE',  ( 0.000000000000000000, 0.000000000000000000, 1.000000000000000000 ) ) ;
#83 = CARTESIAN_POINT ( 'NONE',  ( 1.500000000000000888, 0.000000000000000000, 0.000000000000000000 ) ) ;
#84 = DIRECTION ( 'NONE',  ( 1.000000000000000000, 0.000000000000000000, 0.000000000000000000 ) ) ;
#85 = CIRCLE ( 'NONE', #143, 6.349999999999999645 ) ;
#86 = EDGE_LOOP ( 'NONE', ( #195, #92, #283, #38 ) ) ;
#87 = EDGE_LOOP ( 'NONE', ( #33, #307 ) ) ;
#88 = VERTEX_POINT ( 'NONE', #271 ) ;
#89 = DIRECTION ( 'NONE',  ( 0.000000000000000000, 0.000000000000000000, 1.000000000000000000 ) ) ;
#90 = ORIENTED_EDGE ( 'NONE', *, *, #201, .T. ) ;
#91 = CC_DESIGN_APPROVAL ( #241, ( #213 ) ) ;
#92 = ORIENTED_EDGE ( 'NONE', *, *, #16, .T. ) ;
#93 = CARTESIAN_POINT ( 'NONE',  ( 3.000000000000000000, 1.555301434917138433E-15, -12.69999999999999929 ) ) ;
#94 = DIRECTION ( 'NONE',  ( -1.000000000000000000, -0.000000000000000000, -0.000000000000000000 ) ) ;
#95 = CIRCLE ( 'NONE', #289, 6.349999999999999645 ) ;
#96 = EDGE_CURVE ( 'NONE', #207, #97, #152, .T. ) ;
#97 = VERTEX_POINT ( 'NONE', #28 ) ;
#98 = FACE_OUTER_BOUND ( 'NONE', #119, .T. ) ;
#99 = AXIS2_PLACEMENT_3D ( 'NONE', #131, #80, #82 ) ;
#100 = DIRECTION ( 'NONE',  ( 0.000000000000000000, 0.000000000000000000, 1.000000000000000000 ) ) ;
#101 = VECTOR ( 'NONE', #301, 1000.000000000000000 ) ;
#102 = DIRECTION ( 'NONE',  ( -1.000000000000000000, -0.000000000000000000, -0.000000000000000000 ) ) ;
#103 = CALENDAR_DATE ( 2020, 22, 12 ) ;
#104 = CARTESIAN_POINT ( 'NONE',  ( -3.000000000000000000, 0.000000000000000000, 12.69999999999999929 ) ) ;
#105 = CARTESIAN_POINT ( 'NONE',  ( -3.000000000000000000, 0.000000000000000000, 0.000000000000000000 ) ) ;
#106 = CC_DESIGN_APPROVAL ( #54, ( #120 ) ) ;
#107 = CARTESIAN_POINT ( 'NONE',  ( 3.000000000000000888, 0.000000000000000000, 6.349999999999999645 ) ) ;
#108 = ORIENTED_EDGE ( 'NONE', *, *, #172, .T. ) ;
#109 = DIRECTION ( 'NONE',  ( 0.000000000000000000, 0.000000000000000000, -1.000000000000000000 ) ) ;
#110 = VERTEX_POINT ( 'NONE', #187 ) ;
#111 = ADVANCED_FACE ( 'NONE', ( #98 ), #209, .F. ) ;
#112 = PERSON_AND_ORGANIZATION ( #57, #67 ) ;
#113 = EDGE_LOOP ( 'NONE', ( #310, #326, #108, #60 ) ) ;
#114 = PERSON_AND_ORGANIZATION ( #57, #67 ) ;
#115 = LINE ( 'NONE', #200, #186 ) ;
#116 = VECTOR ( 'NONE', #12, 1000.000000000000000 ) ;
#117 = ORIENTED_EDGE ( 'NONE', *, *, #201, .F. ) ;
#118 = PLANE ( 'NONE',  #124 ) ;
#119 = EDGE_LOOP ( 'NONE', ( #66, #230, #197, #304 ) ) ;
#120 = PRODUCT_DEFINITION_FORMATION_WITH_SPECIFIED_SOURCE ( 'ANY', '', #214, .NOT_KNOWN. ) ;
#121 = PLANE ( 'NONE',  #151 ) ;
#122 = CARTESIAN_POINT ( 'NONE',  ( 1.500000000000000444, 6.349999999999999645, 0.000000000000000000 ) ) ;
#123 = PERSON_AND_ORGANIZATION ( #57, #67 ) ;
#124 = AXIS2_PLACEMENT_3D ( 'NONE', #71, #237, #43 ) ;
#125 = LINE ( 'NONE', #31, #263 ) ;
#126 = SECURITY_CLASSIFICATION_LEVEL ( 'unclassified' ) ;
#127 = AXIS2_PLACEMENT_3D ( 'NONE', #292, #248, #156 ) ;
#128 = DIRECTION ( 'NONE',  ( 0.000000000000000000, 0.000000000000000000, 1.000000000000000000 ) ) ;
#129 = EDGE_CURVE ( 'NONE', #139, #206, #125, .T. ) ;
#130 = COORDINATED_UNIVERSAL_TIME_OFFSET ( 8, 0, .AHEAD. ) ;
#131 = CARTESIAN_POINT ( 'NONE',  ( -1.614212418857619014, 0.000000000000000000, 0.000000000000000000 ) ) ;
#132 = EDGE_CURVE ( 'NONE', #97, #206, #1, .T. ) ;
#133 = AXIS2_PLACEMENT_3D ( 'NONE', #44, #314, #329 ) ;
#134 = DIRECTION ( 'NONE',  ( -1.000000000000000000, -0.000000000000000000, -0.000000000000000000 ) ) ;
#135 = ORIENTED_EDGE ( 'NONE', *, *, #227, .T. ) ;
#136 = CC_DESIGN_SECURITY_CLASSIFICATION ( #213, ( #120 ) ) ;
#137 =( NAMED_UNIT ( * ) SI_UNIT ( $, .STERADIAN. ) SOLID_ANGLE_UNIT ( ) );
#138 = CARTESIAN_POINT ( 'NONE',  ( 3.000000000000000000, 0.000000000000000000, 0.000000000000000000 ) ) ;
#139 = VERTEX_POINT ( 'NONE', #75 ) ;
#140 = CC_DESIGN_PERSON_AND_ORGANIZATION_ASSIGNMENT ( #331, #205, ( #214 ) ) ;
#141 = FACE_OUTER_BOUND ( 'NONE', #86, .T. ) ;
#142 = EDGE_LOOP ( 'NONE', ( #226, #288, #13, #328 ) ) ;
#143 = AXIS2_PLACEMENT_3D ( 'NONE', #83, #78, #5 ) ;
#144 = EDGE_CURVE ( 'NONE', #257, #110, #95, .T. ) ;
#145 = ORIENTED_EDGE ( 'NONE', *, *, #16, .F. ) ;
#146 = FACE_OUTER_BOUND ( 'NONE', #113, .T. ) ;
#147 = DIRECTION ( 'NONE',  ( -1.000000000000000000, -0.000000000000000000, -0.000000000000000000 ) ) ;
#148 = COORDINATED_UNIVERSAL_TIME_OFFSET ( 8, 0, .AHEAD. ) ;
#149 = ORIENTED_EDGE ( 'NONE', *, *, #175, .T. ) ;
#150 = CARTESIAN_POINT ( 'NONE',  ( 3.000000000000000888, 0.000000000000000000, 0.000000000000000000 ) ) ;
#151 = AXIS2_PLACEMENT_3D ( 'NONE', #122, #334, #210 ) ;
#152 = LINE ( 'NONE', #297, #77 ) ;
#153 = DATE_TIME_ROLE ( 'classification_date' ) ;
#154 = CARTESIAN_POINT ( 'NONE',  ( -1.614212418857619014, 0.000000000000000000, 0.000000000000000000 ) ) ;
#155 = PERSON_AND_ORGANIZATION_ROLE ( 'creator' ) ;
#156 = DIRECTION ( 'NONE',  ( 0.000000000000000000, 0.000000000000000000, -1.000000000000000000 ) ) ;
#157 = PERSON_AND_ORGANIZATION_ROLE ( 'classification_officer' ) ;
#158 = DATE_AND_TIME ( #250, #247 ) ;
#159 = AXIS2_PLACEMENT_3D ( 'NONE', #154, #272, #128 ) ;
#160 = EDGE_CURVE ( 'NONE', #207, #139, #62, .T. ) ;
#161 = APPLICATION_CONTEXT ( 'configuration controlled 3d designs of mechanical parts and assemblies' ) ;
#162 = CYLINDRICAL_SURFACE ( 'NONE', #79, 12.69999999999999929 ) ;
#163 = FACE_OUTER_BOUND ( 'NONE', #174, .T. ) ;
#164 = VERTEX_POINT ( 'NONE', #104 ) ;
#165 = CC_DESIGN_PERSON_AND_ORGANIZATION_ASSIGNMENT ( #246, #155, ( #120 ) ) ;
#166 = APPROVAL_PERSON_ORGANIZATION ( #123, #241, #243 ) ;
#167 = DIRECTION ( 'NONE',  ( 1.000000000000000000, 0.000000000000000000, 0.000000000000000000 ) ) ;
#168 = ORIENTED_EDGE ( 'NONE', *, *, #295, .T. ) ;
#169 = CARTESIAN_POINT ( 'NONE',  ( -1.500000000000000444, 6.349999999999999645, 0.000000000000000000 ) ) ;
#170 = EDGE_LOOP ( 'NONE', ( #171, #168, #261, #191 ) ) ;
#171 = ORIENTED_EDGE ( 'NONE', *, *, #175, .F. ) ;
#172 = EDGE_CURVE ( 'NONE', #257, #259, #242, .T. ) ;
#173 = DATE_TIME_ROLE ( 'creation_date' ) ;
#174 = EDGE_LOOP ( 'NONE', ( #145, #279, #65, #117 ) ) ;
#175 = EDGE_CURVE ( 'NONE', #110, #257, #311, .T. ) ;
#176 = VERTEX_POINT ( 'NONE', #184 ) ;
#177 = VECTOR ( 'NONE', #102, 1000.000000000000000 ) ;
#178 = DIRECTION ( 'NONE',  ( -1.000000000000000000, -0.000000000000000000, -0.000000000000000000 ) ) ;
#179 = DIRECTION ( 'NONE',  ( 0.000000000000000000, 0.000000000000000000, 1.000000000000000000 ) ) ;
#180 = ADVANCED_FACE ( 'NONE', ( #24 ), #52, .F. ) ;
#181 = CARTESIAN_POINT ( 'NONE',  ( -1.500000000000000444, 7.776507174585692163E-16, -6.349999999999999645 ) ) ;
#182 = AXIS2_PLACEMENT_3D ( 'NONE', #105, #7, #56 ) ;
#183 = CC_DESIGN_PERSON_AND_ORGANIZATION_ASSIGNMENT ( #294, #157, ( #213 ) ) ;
#184 = CARTESIAN_POINT ( 'NONE',  ( 1.500000000000000888, 7.776507174585692163E-16, -6.349999999999999645 ) ) ;
#185 = EDGE_CURVE ( 'NONE', #259, #176, #85, .T. ) ;
#186 = VECTOR ( 'NONE', #178, 1000.000000000000000 ) ;
#187 = CARTESIAN_POINT ( 'NONE',  ( 3.000000000000000888, 7.776507174585692163E-16, -6.349999999999999645 ) ) ;
#188 = CARTESIAN_POINT ( 'NONE',  ( -3.000000000000000000, 1.555301434917138433E-15, -12.69999999999999929 ) ) ;
#189 = DIRECTION ( 'NONE',  ( -1.000000000000000000, -0.000000000000000000, -0.000000000000000000 ) ) ;
#190 = EDGE_LOOP ( 'NONE', ( #135, #90 ) ) ;
#191 = ORIENTED_EDGE ( 'NONE', *, *, #172, .F. ) ;
#192 = APPROVAL_PERSON_ORGANIZATION ( #41, #54, #30 ) ;
#193 = CARTESIAN_POINT ( 'NONE',  ( 1.500000000000000888, 0.000000000000000000, 6.349999999999999645 ) ) ;
#194 = ORIENTED_EDGE ( 'NONE', *, *, #160, .F. ) ;
#195 = ORIENTED_EDGE ( 'NONE', *, *, #46, .T. ) ;
#196 = CIRCLE ( 'NONE', #212, 6.349999999999999645 ) ;
#197 = ORIENTED_EDGE ( 'NONE', *, *, #132, .T. ) ;
#198 = APPROVAL_DATE_TIME ( #74, #81 ) ;
#199 = CIRCLE ( 'NONE', #282, 12.69999999999999929 ) ;
#200 = CARTESIAN_POINT ( 'NONE',  ( -1.614212418857619014, 1.555301434917138433E-15, -12.69999999999999929 ) ) ;
#201 = EDGE_CURVE ( 'NONE', #290, #164, #199, .T. ) ;
#202 = DIRECTION ( 'NONE',  ( 0.000000000000000000, 0.000000000000000000, 1.000000000000000000 ) ) ;
#203 = APPLICATION_CONTEXT ( 'configuration controlled 3d designs of mechanical parts and assemblies' ) ;
#204 = ADVANCED_FACE ( 'NONE', ( #47 ), #121, .F. ) ;
#205 = PERSON_AND_ORGANIZATION_ROLE ( 'design_owner' ) ;
#206 = VERTEX_POINT ( 'NONE', #317 ) ;
#207 = VERTEX_POINT ( 'NONE', #181 ) ;
#208 =( GEOMETRIC_REPRESENTATION_CONTEXT ( 3 ) GLOBAL_UNCERTAINTY_ASSIGNED_CONTEXT ( ( #284 ) ) GLOBAL_UNIT_ASSIGNED_CONTEXT ( ( #253, #278, #137 ) ) REPRESENTATION_CONTEXT ( 'NONE', 'WORKASPACE' ) );
#209 = CYLINDRICAL_SURFACE ( 'NONE', #99, 6.349999999999999645 ) ;
#210 = DIRECTION ( 'NONE',  ( -0.000000000000000000, 0.000000000000000000, 1.000000000000000000 ) ) ;
#211 = APPROVAL_DATE_TIME ( #158, #54 ) ;
#212 = AXIS2_PLACEMENT_3D ( 'NONE', #330, #285, #268 ) ;
#213 = SECURITY_CLASSIFICATION ( '', '', #126 ) ;
#214 = PRODUCT ( 'Q-AZHWP-12.7-980-M', 'Q-AZHWP-12.7-980-M', '', ( #235 ) ) ;
#215 = CARTESIAN_POINT ( 'NONE',  ( -2.999999999999999556, 0.000000000000000000, 0.000000000000000000 ) ) ;
#216 = DATE_AND_TIME ( #50, #8 ) ;
#217 = DIRECTION ( 'NONE',  ( -1.000000000000000000, -0.000000000000000000, -0.000000000000000000 ) ) ;
#218 = PLANE ( 'NONE',  #300 ) ;
#219 = AXIS2_PLACEMENT_3D ( 'NONE', #138, #189, #303 ) ;
#220 = CIRCLE ( 'NONE', #182, 12.69999999999999929 ) ;
#221 = DIRECTION ( 'NONE',  ( 0.000000000000000000, 0.000000000000000000, 1.000000000000000000 ) ) ;
#222 = CYLINDRICAL_SURFACE ( 'NONE', #35, 12.69999999999999929 ) ;
#223 = EDGE_CURVE ( 'NONE', #88, #164, #293, .T. ) ;
#224 = AXIS2_PLACEMENT_3D ( 'NONE', #23, #245, #100 ) ;
#225 = CARTESIAN_POINT ( 'NONE',  ( 0.000000000000000000, 0.000000000000000000, 0.000000000000000000 ) ) ;
#226 = ORIENTED_EDGE ( 'NONE', *, *, #96, .F. ) ;
#227 = EDGE_CURVE ( 'NONE', #164, #290, #220, .T. ) ;
#228 = APPROVAL_PERSON_ORGANIZATION ( #114, #81, #40 ) ;
#229 = APPROVAL_STATUS ( 'not_yet_approved' ) ;
#230 = ORIENTED_EDGE ( 'NONE', *, *, #96, .T. ) ;
#231 = DIRECTION ( 'NONE',  ( -1.000000000000000000, -0.000000000000000000, -0.000000000000000000 ) ) ;
#232 = APPROVAL_STATUS ( 'not_yet_approved' ) ;
#233 = AXIS2_PLACEMENT_3D ( 'NONE', #150, #29, #319 ) ;
#234 = EDGE_CURVE ( 'NONE', #15, #88, #265, .T. ) ;
#235 = MECHANICAL_CONTEXT ( 'NONE', #161, 'mechanical' ) ;
#236 = EDGE_LOOP ( 'NONE', ( #309, #281 ) ) ;
#237 = DIRECTION ( 'NONE',  ( -1.000000000000000000, 0.000000000000000000, -0.000000000000000000 ) ) ;
#238 = CIRCLE ( 'NONE', #133, 6.349999999999999645 ) ;
#239 = FACE_OUTER_BOUND ( 'NONE', #170, .T. ) ;
#240 = AXIS2_PLACEMENT_3D ( 'NONE', #215, #251, #315 ) ;
#241 = APPROVAL ( #27, 'UNSPECIFIED' ) ;
#242 = LINE ( 'NONE', #3, #177 ) ;
#243 = APPROVAL_ROLE ( '' ) ;
#244 = ADVANCED_FACE ( 'NONE', ( #308 ), #218, .F. ) ;
#245 = DIRECTION ( 'NONE',  ( -1.000000000000000000, -0.000000000000000000, -0.000000000000000000 ) ) ;
#246 = PERSON_AND_ORGANIZATION ( #57, #67 ) ;
#247 = LOCAL_TIME ( 17, 7, 30.00000000000000000, #130 ) ;
#248 = DIRECTION ( 'NONE',  ( 1.000000000000000000, 0.000000000000000000, 0.000000000000000000 ) ) ;
#249 = SHAPE_DEFINITION_REPRESENTATION ( #316, #260 ) ;
#250 = CALENDAR_DATE ( 2020, 22, 12 ) ;
#251 = DIRECTION ( 'NONE',  ( -1.000000000000000000, -0.000000000000000000, -0.000000000000000000 ) ) ;
#252 = CIRCLE ( 'NONE', #287, 12.69999999999999929 ) ;
#253 =( LENGTH_UNIT ( ) NAMED_UNIT ( * ) SI_UNIT ( .MILLI., .METRE. ) );
#254 = ADVANCED_FACE ( 'NONE', ( #63, #255 ), #322, .F. ) ;
#255 = FACE_OUTER_BOUND ( 'NONE', #190, .T. ) ;
#256 = DIRECTION ( 'NONE',  ( 0.000000000000000000, 0.000000000000000000, 1.000000000000000000 ) ) ;
#257 = VERTEX_POINT ( 'NONE', #107 ) ;
#258 = LOCAL_TIME ( 17, 7, 30.00000000000000000, #148 ) ;
#259 = VERTEX_POINT ( 'NONE', #193 ) ;
#260 = ADVANCED_BREP_SHAPE_REPRESENTATION ( 'Q-AZHWP-12.7-980-M', ( #20, #55 ), #208 ) ;
#261 = ORIENTED_EDGE ( 'NONE', *, *, #25, .T. ) ;
#262 = CALENDAR_DATE ( 2020, 22, 12 ) ;
#263 = VECTOR ( 'NONE', #296, 1000.000000000000000 ) ;
#264 = CARTESIAN_POINT ( 'NONE',  ( -2.999999999999999556, 0.000000000000000000, 0.000000000000000000 ) ) ;
#265 = CIRCLE ( 'NONE', #219, 12.69999999999999929 ) ;
#266 = ORIENTED_EDGE ( 'NONE', *, *, #132, .F. ) ;
#267 = APPLICATION_PROTOCOL_DEFINITION ( 'international standard', 'config_control_design', 1994, #203 ) ;
#268 = DIRECTION ( 'NONE',  ( 0.000000000000000000, 0.000000000000000000, -1.000000000000000000 ) ) ;
#269 = CARTESIAN_POINT ( 'NONE',  ( 3.000000000000000888, 0.000000000000000000, 0.000000000000000000 ) ) ;
#270 = COORDINATED_UNIVERSAL_TIME_OFFSET ( 8, 0, .AHEAD. ) ;
#271 = CARTESIAN_POINT ( 'NONE',  ( 3.000000000000000000, 0.000000000000000000, 12.69999999999999929 ) ) ;
#272 = DIRECTION ( 'NONE',  ( -1.000000000000000000, -0.000000000000000000, -0.000000000000000000 ) ) ;
#273 = DIRECTION ( 'NONE',  ( -1.000000000000000000, -0.000000000000000000, -0.000000000000000000 ) ) ;
#274 = PERSON_AND_ORGANIZATION ( #57, #67 ) ;
#275 = CARTESIAN_POINT ( 'NONE',  ( -1.614212418857619014, 0.000000000000000000, 0.000000000000000000 ) ) ;
#276 = AXIS2_PLACEMENT_3D ( 'NONE', #19, #94, #291 ) ;
#277 = PRODUCT_RELATED_PRODUCT_CATEGORY ( 'detail', '', ( #214 ) ) ;
#278 =( NAMED_UNIT ( * ) PLANE_ANGLE_UNIT ( ) SI_UNIT ( $, .RADIAN. ) );
#279 = ORIENTED_EDGE ( 'NONE', *, *, #234, .T. ) ;
#280 = CARTESIAN_POINT ( 'NONE',  ( -1.614212418857619014, 7.776507174585692163E-16, -6.349999999999999645 ) ) ;
#281 = ORIENTED_EDGE ( 'NONE', *, *, #234, .F. ) ;
#282 = AXIS2_PLACEMENT_3D ( 'NONE', #26, #217, #179 ) ;
#283 = ORIENTED_EDGE ( 'NONE', *, *, #227, .F. ) ;
#284 = UNCERTAINTY_MEASURE_WITH_UNIT (LENGTH_MEASURE( 1.000000000000000082E-05 ), #253, 'distance_accuracy_value', 'NONE');
#285 = DIRECTION ( 'NONE',  ( 1.000000000000000000, 0.000000000000000000, 0.000000000000000000 ) ) ;
#286 = CC_DESIGN_PERSON_AND_ORGANIZATION_ASSIGNMENT ( #112, #68, ( #76 ) ) ;
#287 = AXIS2_PLACEMENT_3D ( 'NONE', #312, #231, #69 ) ;
#288 = ORIENTED_EDGE ( 'NONE', *, *, #160, .T. ) ;
#289 = AXIS2_PLACEMENT_3D ( 'NONE', #269, #53, #321 ) ;
#290 = VERTEX_POINT ( 'NONE', #188 ) ;
#291 = DIRECTION ( 'NONE',  ( 0.000000000000000000, 0.000000000000000000, 1.000000000000000000 ) ) ;
#292 = CARTESIAN_POINT ( 'NONE',  ( -1.500000000000000444, 0.000000000000000000, 0.000000000000000000 ) ) ;
#293 = LINE ( 'NONE', #49, #116 ) ;
#294 = PERSON_AND_ORGANIZATION ( #57, #67 ) ;
#295 = EDGE_CURVE ( 'NONE', #110, #176, #306, .T. ) ;
#296 = DIRECTION ( 'NONE',  ( -1.000000000000000000, -0.000000000000000000, -0.000000000000000000 ) ) ;
#297 = CARTESIAN_POINT ( 'NONE',  ( -1.614212418857619014, 7.776507174585692163E-16, -6.349999999999999645 ) ) ;
#298 = COORDINATED_UNIVERSAL_TIME_OFFSET ( 8, 0, .AHEAD. ) ;
#299 = ADVANCED_FACE ( 'NONE', ( #163 ), #222, .T. ) ;
#300 = AXIS2_PLACEMENT_3D ( 'NONE', #169, #167, #59 ) ;
#301 = DIRECTION ( 'NONE',  ( -1.000000000000000000, -0.000000000000000000, -0.000000000000000000 ) ) ;
#302 = CC_DESIGN_PERSON_AND_ORGANIZATION_ASSIGNMENT ( #274, #6, ( #120 ) ) ;
#303 = DIRECTION ( 'NONE',  ( 0.000000000000000000, 0.000000000000000000, 1.000000000000000000 ) ) ;
#304 = ORIENTED_EDGE ( 'NONE', *, *, #129, .F. ) ;
#305 = LOCAL_TIME ( 17, 7, 30.00000000000000000, #72 ) ;
#306 = LINE ( 'NONE', #280, #101 ) ;
#307 = ORIENTED_EDGE ( 'NONE', *, *, #25, .F. ) ;
#308 = FACE_OUTER_BOUND ( 'NONE', #17, .T. ) ;
#309 = ORIENTED_EDGE ( 'NONE', *, *, #46, .F. ) ;
#310 = ORIENTED_EDGE ( 'NONE', *, *, #295, .F. ) ;
#311 = CIRCLE ( 'NONE', #233, 6.349999999999999645 ) ;
#312 = CARTESIAN_POINT ( 'NONE',  ( 3.000000000000000000, 0.000000000000000000, 0.000000000000000000 ) ) ;
#313 = DIRECTION ( 'NONE',  ( 1.000000000000000000, 0.000000000000000000, 0.000000000000000000 ) ) ;
#314 = DIRECTION ( 'NONE',  ( -1.000000000000000000, -0.000000000000000000, -0.000000000000000000 ) ) ;
#315 = DIRECTION ( 'NONE',  ( 0.000000000000000000, 0.000000000000000000, 1.000000000000000000 ) ) ;
#316 = PRODUCT_DEFINITION_SHAPE ( 'NONE', 'NONE',  #76 ) ;
#317 = CARTESIAN_POINT ( 'NONE',  ( -2.999999999999999556, 0.000000000000000000, 6.349999999999999645 ) ) ;
#318 = CLOSED_SHELL ( 'NONE', ( #325, #111, #70, #204, #64, #180, #254, #299, #58, #244 ) ) ;
#319 = DIRECTION ( 'NONE',  ( 0.000000000000000000, 0.000000000000000000, 1.000000000000000000 ) ) ;
#320 = APPROVAL_DATE_TIME ( #335, #241 ) ;
#321 = DIRECTION ( 'NONE',  ( 0.000000000000000000, 0.000000000000000000, 1.000000000000000000 ) ) ;
#322 = PLANE ( 'NONE',  #333 ) ;
#323 = CARTESIAN_POINT ( 'NONE',  ( -1.614212418857619014, 0.000000000000000000, 0.000000000000000000 ) ) ;
#324 = ORIENTED_EDGE ( 'NONE', *, *, #51, .F. ) ;
#325 = ADVANCED_FACE ( 'NONE', ( #141 ), #162, .T. ) ;
#326 = ORIENTED_EDGE ( 'NONE', *, *, #144, .F. ) ;
#327 = DATE_AND_TIME ( #262, #258 ) ;
#328 = ORIENTED_EDGE ( 'NONE', *, *, #51, .T. ) ;
#329 = DIRECTION ( 'NONE',  ( 0.000000000000000000, 0.000000000000000000, 1.000000000000000000 ) ) ;
#330 = CARTESIAN_POINT ( 'NONE',  ( -1.500000000000000444, 0.000000000000000000, 0.000000000000000000 ) ) ;
#331 = PERSON_AND_ORGANIZATION ( #57, #67 ) ;
#332 = CYLINDRICAL_SURFACE ( 'NONE', #276, 6.349999999999999645 ) ;
#333 = AXIS2_PLACEMENT_3D ( 'NONE', #36, #84, #109 ) ;
#334 = DIRECTION ( 'NONE',  ( -1.000000000000000000, 0.000000000000000000, -0.000000000000000000 ) ) ;
#335 = DATE_AND_TIME ( #103, #48 ) ;
ENDSEC;
END-ISO-10303-21;
